ISO-10303-21;
HEADER;
FILE_DESCRIPTION (( 'STEP AP203' ),
    '1' );
FILE_NAME ('BK7-LPBSC-20-405.STEP',
    '2020-12-22T03:12:55',
    ( '' ),
    ( '' ),
    'SwSTEP 2.0',
    'SolidWorks 2020',
    '' );
FILE_SCHEMA (( 'CONFIG_CONTROL_DESIGN' ));
ENDSEC;

DATA;
#1 = LOCAL_TIME ( 11, 12, 55.00000000000000000, #162 ) ;
#2 = AXIS2_PLACEMENT_3D ( 'NONE', #147, #44, #219 ) ;
#3 = FACE_OUTER_BOUND ( 'NONE', #249, .T. ) ;
#4 = PLANE ( 'NONE',  #183 ) ;
#5 = EDGE_LOOP ( 'NONE', ( #296, #173, #68 ) ) ;
#6 = CARTESIAN_POINT ( 'NONE',  ( 10.00000000000000178, -10.00000000000000000, -10.00000000000000000 ) ) ;
#7 = CARTESIAN_POINT ( 'NONE',  ( -9.999999999999998224, -10.00000000000000000, 10.00000000000000000 ) ) ;
#8 = LINE ( 'NONE', #116, #18 ) ;
#9 = FACE_OUTER_BOUND ( 'NONE', #67, .T. ) ;
#10 = CARTESIAN_POINT ( 'NONE',  ( -10.00000000000000178, -9.999999999999996447, 10.00000000000000000 ) ) ;
#11 = FACE_OUTER_BOUND ( 'NONE', #47, .T. ) ;
#12 = CARTESIAN_POINT ( 'NONE',  ( 10.00000000000000000, 10.00000000000000000, 10.00000000000000000 ) ) ;
#13 = EDGE_CURVE ( 'NONE', #214, #321, #8, .T. ) ;
#14 = PRODUCT_DEFINITION ( 'UNKNOWN', '', #260, #87 ) ;
#15 = ADVANCED_FACE ( 'NONE', ( #3 ), #4, .F. ) ;
#16 = CALENDAR_DATE ( 2020, 22, 12 ) ;
#17 = EDGE_CURVE ( 'NONE', #269, #21, #129, .T. ) ;
#18 = VECTOR ( 'NONE', #101, 1000.000000000000000 ) ;
#19 = ORIENTED_EDGE ( 'NONE', *, *, #234, .F. ) ;
#20 = PERSON_AND_ORGANIZATION ( #259, #200 ) ;
#21 = VERTEX_POINT ( 'NONE', #104 ) ;
#22 = EDGE_CURVE ( 'NONE', #41, #269, #123, .T. ) ;
#23 = ORIENTED_EDGE ( 'NONE', *, *, #62, .T. ) ;
#24 = CARTESIAN_POINT ( 'NONE',  ( 10.00000000000000000, 10.00000000000000000, 10.00000000000000000 ) ) ;
#25 = ORIENTED_EDGE ( 'NONE', *, *, #180, .T. ) ;
#26 = AXIS2_PLACEMENT_3D ( 'NONE', #31, #145, #191 ) ;
#27 = CARTESIAN_POINT ( 'NONE',  ( -10.00000000000000178, -9.999999999999996447, 10.00000000000000000 ) ) ;
#28 = CARTESIAN_POINT ( 'NONE',  ( 10.00000000000000000, 10.00000000000000000, 10.00000000000000000 ) ) ;
#29 = CARTESIAN_POINT ( 'NONE',  ( 0.000000000000000000, 0.000000000000000000, 10.00000000000000000 ) ) ;
#30 = CARTESIAN_POINT ( 'NONE',  ( 10.00000000000000178, 9.999999999999998224, 10.00000000000000000 ) ) ;
#31 = CARTESIAN_POINT ( 'NONE',  ( 0.000000000000000000, 0.000000000000000000, -10.00000000000000000 ) ) ;
#32 = VECTOR ( 'NONE', #51, 1000.000000000000000 ) ;
#33 = CC_DESIGN_APPROVAL ( #126, ( #260 ) ) ;
#34 =( NAMED_UNIT ( * ) SI_UNIT ( $, .STERADIAN. ) SOLID_ANGLE_UNIT ( ) );
#35 = PERSON_AND_ORGANIZATION ( #259, #200 ) ;
#36 = PERSON_AND_ORGANIZATION_ROLE ( 'design_supplier' ) ;
#37 = CALENDAR_DATE ( 2020, 22, 12 ) ;
#38 = ORIENTED_EDGE ( 'NONE', *, *, #115, .F. ) ;
#39 = ORIENTED_EDGE ( 'NONE', *, *, #180, .F. ) ;
#40 = COORDINATED_UNIVERSAL_TIME_OFFSET ( 8, 0, .AHEAD. ) ;
#41 = VERTEX_POINT ( 'NONE', #146 ) ;
#42 = VERTEX_POINT ( 'NONE', #251 ) ;
#43 = ORIENTED_EDGE ( 'NONE', *, *, #134, .F. ) ;
#44 = DIRECTION ( 'NONE',  ( 0.000000000000000000, -0.000000000000000000, 1.000000000000000000 ) ) ;
#45 = EDGE_CURVE ( 'NONE', #302, #119, #106, .T. ) ;
#46 = ORIENTED_EDGE ( 'NONE', *, *, #267, .T. ) ;
#47 = EDGE_LOOP ( 'NONE', ( #95, #71, #188, #168 ) ) ;
#48 = FACE_OUTER_BOUND ( 'NONE', #246, .T. ) ;
#49 = DIRECTION ( 'NONE',  ( 1.000000000000000000, 0.000000000000000000, 0.000000000000000000 ) ) ;
#50 = PRODUCT_RELATED_PRODUCT_CATEGORY ( 'detail', '', ( #227 ) ) ;
#51 = DIRECTION ( 'NONE',  ( 1.000000000000000000, -2.220446049250313081E-16, 0.000000000000000000 ) ) ;
#52 = MANIFOLD_SOLID_BREP ( 'Í¹Ì¨-À', #89 ) ;
#53 = DIRECTION ( 'NONE',  ( -0.7071067811865475727, -0.7071067811865474617, 0.000000000000000000 ) ) ;
#54 = DIRECTION ( 'NONE',  ( 0.000000000000000000, -0.000000000000000000, 1.000000000000000000 ) ) ;
#55 = DIRECTION ( 'NONE',  ( -0.000000000000000000, 0.000000000000000000, -1.000000000000000000 ) ) ;
#56 = VECTOR ( 'NONE', #278, 1000.000000000000000 ) ;
#57 = AXIS2_PLACEMENT_3D ( 'NONE', #77, #176, #313 ) ;
#58 = APPROVAL_STATUS ( 'not_yet_approved' ) ;
#59 = APPROVAL_PERSON_ORGANIZATION ( #88, #186, #137 ) ;
#60 = VECTOR ( 'NONE', #130, 1000.000000000000000 ) ;
#61 = PERSON_AND_ORGANIZATION_ROLE ( 'creator' ) ;
#62 = EDGE_CURVE ( 'NONE', #144, #214, #309, .T. ) ;
#63 = PERSON_AND_ORGANIZATION ( #259, #200 ) ;
#64 = VECTOR ( 'NONE', #53, 1000.000000000000000 ) ;
#65 = APPROVAL_PERSON_ORGANIZATION ( #264, #126, #92 ) ;
#66 = APPROVAL_DATE_TIME ( #295, #126 ) ;
#67 = EDGE_LOOP ( 'NONE', ( #91, #272, #299, #74 ) ) ;
#68 = ORIENTED_EDGE ( 'NONE', *, *, #120, .T. ) ;
#69 = APPLICATION_CONTEXT ( 'configuration controlled 3d designs of mechanical parts and assemblies' ) ;
#70 = DIRECTION ( 'NONE',  ( 0.7071067811865475727, 0.7071067811865474617, 0.000000000000000000 ) ) ;
#71 = ORIENTED_EDGE ( 'NONE', *, *, #83, .F. ) ;
#72 = VECTOR ( 'NONE', #196, 1000.000000000000000 ) ;
#73 = ORIENTED_EDGE ( 'NONE', *, *, #134, .T. ) ;
#74 = ORIENTED_EDGE ( 'NONE', *, *, #318, .T. ) ;
#75 = PLANE ( 'NONE',  #2 ) ;
#76 = CC_DESIGN_PERSON_AND_ORGANIZATION_ASSIGNMENT ( #271, #110, ( #142 ) ) ;
#77 = CARTESIAN_POINT ( 'NONE',  ( 10.00000000000000178, 9.999999999999998224, 10.00000000000000000 ) ) ;
#78 = PLANE ( 'NONE',  #118 ) ;
#79 = CARTESIAN_POINT ( 'NONE',  ( -9.999999999999998224, 10.00000000000000355, -10.00000000000000000 ) ) ;
#80 = CARTESIAN_POINT ( 'NONE',  ( -9.999999999999998224, -10.00000000000000000, 10.00000000000000000 ) ) ;
#81 = CARTESIAN_POINT ( 'NONE',  ( -9.999999999999998224, -10.00000000000000000, 10.00000000000000000 ) ) ;
#82 = CARTESIAN_POINT ( 'NONE',  ( 10.00000000000000000, 10.00000000000000000, 10.00000000000000000 ) ) ;
#83 = EDGE_CURVE ( 'NONE', #269, #42, #96, .T. ) ;
#84 = PLANE ( 'NONE',  #221 ) ;
#85 = CARTESIAN_POINT ( 'NONE',  ( -9.999999999999998224, -10.00000000000000000, -10.00000000000000000 ) ) ;
#86 = DATE_TIME_ROLE ( 'classification_date' ) ;
#87 = DESIGN_CONTEXT ( 'detailed design', #233, 'design' ) ;
#88 = PERSON_AND_ORGANIZATION ( #259, #200 ) ;
#89 = CLOSED_SHELL ( 'NONE', ( #289, #306, #239, #90, #205 ) ) ;
#90 = ADVANCED_FACE ( 'NONE', ( #275 ), #148, .T. ) ;
#91 = ORIENTED_EDGE ( 'NONE', *, *, #273, .T. ) ;
#92 = APPROVAL_ROLE ( '' ) ;
#93 = EDGE_LOOP ( 'NONE', ( #114, #301, #209 ) ) ;
#94 = VECTOR ( 'NONE', #55, 1000.000000000000000 ) ;
#95 = ORIENTED_EDGE ( 'NONE', *, *, #234, .T. ) ;
#96 = LINE ( 'NONE', #80, #72 ) ;
#97 = APPROVAL ( #58, 'UNSPECIFIED' ) ;
#98 = ORIENTED_EDGE ( 'NONE', *, *, #203, .T. ) ;
#99 = LINE ( 'NONE', #174, #297 ) ;
#100 = CARTESIAN_POINT ( 'NONE',  ( 10.00000000000000178, 9.999999999999998224, 10.00000000000000000 ) ) ;
#101 = DIRECTION ( 'NONE',  ( 2.220446049250313081E-16, 1.000000000000000000, 0.000000000000000000 ) ) ;
#102 = PLANE ( 'NONE',  #57 ) ;
#103 = DIRECTION ( 'NONE',  ( -0.000000000000000000, -0.000000000000000000, -1.000000000000000000 ) ) ;
#104 = CARTESIAN_POINT ( 'NONE',  ( 10.00000000000000178, -10.00000000000000000, 10.00000000000000000 ) ) ;
#105 = CARTESIAN_POINT ( 'NONE',  ( -10.00000000000000178, -9.999999999999996447, -10.00000000000000000 ) ) ;
#106 = LINE ( 'NONE', #201, #32 ) ;
#107 = CARTESIAN_POINT ( 'NONE',  ( 10.00000000000000178, 9.999999999999998224, -10.00000000000000000 ) ) ;
#108 = VECTOR ( 'NONE', #151, 1000.000000000000000 ) ;
#109 = LOCAL_TIME ( 11, 12, 55.00000000000000000, #238 ) ;
#110 = PERSON_AND_ORGANIZATION_ROLE ( 'classification_officer' ) ;
#111 = VECTOR ( 'NONE', #193, 1000.000000000000000 ) ;
#112 = APPLICATION_PROTOCOL_DEFINITION ( 'international standard', 'config_control_design', 1994, #233 ) ;
#113 = CARTESIAN_POINT ( 'NONE',  ( 0.000000000000000000, 0.000000000000000000, 0.000000000000000000 ) ) ;
#114 = ORIENTED_EDGE ( 'NONE', *, *, #115, .T. ) ;
#115 = EDGE_CURVE ( 'NONE', #119, #218, #175, .T. ) ;
#116 = CARTESIAN_POINT ( 'NONE',  ( -10.00000000000000178, -9.999999999999996447, 10.00000000000000000 ) ) ;
#117 = DIRECTION ( 'NONE',  ( -0.7071067811865474617, 0.7071067811865475727, 0.000000000000000000 ) ) ;
#118 = AXIS2_PLACEMENT_3D ( 'NONE', #10, #177, #284 ) ;
#119 = VERTEX_POINT ( 'NONE', #225 ) ;
#120 = EDGE_CURVE ( 'NONE', #21, #41, #220, .T. ) ;
#121 = CARTESIAN_POINT ( 'NONE',  ( -10.00000000000000178, -9.999999999999996447, -10.00000000000000000 ) ) ;
#122 = CARTESIAN_POINT ( 'NONE',  ( 10.00000000000000000, 10.00000000000000000, -10.00000000000000000 ) ) ;
#123 = LINE ( 'NONE', #30, #64 ) ;
#124 = CARTESIAN_POINT ( 'NONE',  ( 10.00000000000000178, 9.999999999999998224, 10.00000000000000000 ) ) ;
#125 = LINE ( 'NONE', #229, #94 ) ;
#126 = APPROVAL ( #266, 'UNSPECIFIED' ) ;
#127 = FACE_OUTER_BOUND ( 'NONE', #195, .T. ) ;
#128 =( GEOMETRIC_REPRESENTATION_CONTEXT ( 3 ) GLOBAL_UNCERTAINTY_ASSIGNED_CONTEXT ( ( #315 ) ) GLOBAL_UNIT_ASSIGNED_CONTEXT ( ( #198, #262, #34 ) ) REPRESENTATION_CONTEXT ( 'NONE', 'WORKASPACE' ) );
#129 = LINE ( 'NONE', #7, #171 ) ;
#130 = DIRECTION ( 'NONE',  ( -0.000000000000000000, 0.000000000000000000, -1.000000000000000000 ) ) ;
#131 = AXIS2_PLACEMENT_3D ( 'NONE', #113, #319, #135 ) ;
#132 = AXIS2_PLACEMENT_3D ( 'NONE', #24, #117, #70 ) ;
#133 = SECURITY_CLASSIFICATION_LEVEL ( 'unclassified' ) ;
#134 = EDGE_CURVE ( 'NONE', #321, #144, #199, .T. ) ;
#135 = DIRECTION ( 'NONE',  ( 1.000000000000000000, 0.000000000000000000, 0.000000000000000000 ) ) ;
#136 = ORIENTED_EDGE ( 'NONE', *, *, #243, .T. ) ;
#137 = APPROVAL_ROLE ( '' ) ;
#138 = CC_DESIGN_PERSON_AND_ORGANIZATION_ASSIGNMENT ( #20, #61, ( #14 ) ) ;
#139 = CALENDAR_DATE ( 2020, 22, 12 ) ;
#140 = ORIENTED_EDGE ( 'NONE', *, *, #243, .F. ) ;
#141 = ORIENTED_EDGE ( 'NONE', *, *, #13, .F. ) ;
#142 = SECURITY_CLASSIFICATION ( '', '', #133 ) ;
#143 = DATE_AND_TIME ( #300, #210 ) ;
#144 = VERTEX_POINT ( 'NONE', #28 ) ;
#145 = DIRECTION ( 'NONE',  ( -0.000000000000000000, 0.000000000000000000, 1.000000000000000000 ) ) ;
#146 = CARTESIAN_POINT ( 'NONE',  ( 10.00000000000000178, 9.999999999999998224, 10.00000000000000000 ) ) ;
#147 = CARTESIAN_POINT ( 'NONE',  ( 0.000000000000000000, 0.000000000000000000, -10.00000000000000000 ) ) ;
#148 = PLANE ( 'NONE',  #258 ) ;
#149 = VECTOR ( 'NONE', #184, 1000.000000000000000 ) ;
#150 = LOCAL_TIME ( 11, 12, 55.00000000000000000, #187 ) ;
#151 = DIRECTION ( 'NONE',  ( 1.000000000000000000, -2.220446049250313081E-16, 0.000000000000000000 ) ) ;
#152 = LINE ( 'NONE', #105, #202 ) ;
#153 = EDGE_CURVE ( 'NONE', #41, #248, #303, .T. ) ;
#154 = DIRECTION ( 'NONE',  ( -0.7071067811865475727, -0.7071067811865474617, 0.000000000000000000 ) ) ;
#155 = FACE_OUTER_BOUND ( 'NONE', #192, .T. ) ;
#156 = CLOSED_SHELL ( 'NONE', ( #207, #159, #15, #280, #230 ) ) ;
#157 = DIRECTION ( 'NONE',  ( 1.000000000000000000, 0.000000000000000000, 0.000000000000000000 ) ) ;
#158 = MANIFOLD_SOLID_BREP ( '¾µÏ', #156 ) ;
#159 = ADVANCED_FACE ( 'NONE', ( #197 ), #78, .F. ) ;
#160 = APPROVAL_ROLE ( '' ) ;
#161 = VECTOR ( 'NONE', #157, 1000.000000000000000 ) ;
#162 = COORDINATED_UNIVERSAL_TIME_OFFSET ( 8, 0, .AHEAD. ) ;
#163 = DATE_AND_TIME ( #263, #109 ) ;
#164 = APPLICATION_PROTOCOL_DEFINITION ( 'international standard', 'config_control_design', 1994, #69 ) ;
#165 = ORIENTED_EDGE ( 'NONE', *, *, #318, .F. ) ;
#166 = VECTOR ( 'NONE', #282, 1000.000000000000000 ) ;
#167 = PERSON_AND_ORGANIZATION_ROLE ( 'creator' ) ;
#168 = ORIENTED_EDGE ( 'NONE', *, *, #153, .T. ) ;
#169 = APPROVAL_DATE_TIME ( #143, #97 ) ;
#170 = FACE_OUTER_BOUND ( 'NONE', #93, .T. ) ;
#171 = VECTOR ( 'NONE', #49, 1000.000000000000000 ) ;
#172 = ORIENTED_EDGE ( 'NONE', *, *, #83, .T. ) ;
#173 = ORIENTED_EDGE ( 'NONE', *, *, #17, .T. ) ;
#174 = CARTESIAN_POINT ( 'NONE',  ( 10.00000000000000178, 9.999999999999998224, -10.00000000000000000 ) ) ;
#175 = LINE ( 'NONE', #122, #111 ) ;
#176 = DIRECTION ( 'NONE',  ( -1.000000000000000000, 0.000000000000000000, 0.000000000000000000 ) ) ;
#177 = DIRECTION ( 'NONE',  ( 1.000000000000000000, -2.220446049250313081E-16, 0.000000000000000000 ) ) ;
#178 = LINE ( 'NONE', #283, #60 ) ;
#179 = CARTESIAN_POINT ( 'NONE',  ( 10.00000000000000178, 9.999999999999998224, 10.00000000000000000 ) ) ;
#180 = EDGE_CURVE ( 'NONE', #144, #119, #254, .T. ) ;
#181 = DIRECTION ( 'NONE',  ( -0.000000000000000000, -0.000000000000000000, -1.000000000000000000 ) ) ;
#182 = PLANE ( 'NONE',  #242 ) ;
#183 = AXIS2_PLACEMENT_3D ( 'NONE', #307, #255, #312 ) ;
#184 = DIRECTION ( 'NONE',  ( -0.000000000000000000, 1.000000000000000000, -0.000000000000000000 ) ) ;
#185 = PERSON_AND_ORGANIZATION ( #259, #200 ) ;
#186 = APPROVAL ( #268, 'UNSPECIFIED' ) ;
#187 = COORDINATED_UNIVERSAL_TIME_OFFSET ( 8, 0, .AHEAD. ) ;
#188 = ORIENTED_EDGE ( 'NONE', *, *, #22, .F. ) ;
#189 = ORIENTED_EDGE ( 'NONE', *, *, #45, .F. ) ;
#190 = ORIENTED_EDGE ( 'NONE', *, *, #17, .F. ) ;
#191 = DIRECTION ( 'NONE',  ( 1.000000000000000000, 0.000000000000000000, 0.000000000000000000 ) ) ;
#192 = EDGE_LOOP ( 'NONE', ( #19, #304, #140 ) ) ;
#193 = DIRECTION ( 'NONE',  ( -0.7071067811865475727, -0.7071067811865474617, 0.000000000000000000 ) ) ;
#194 = LOCAL_TIME ( 11, 12, 55.00000000000000000, #40 ) ;
#195 = EDGE_LOOP ( 'NONE', ( #136, #165, #190, #172 ) ) ;
#196 = DIRECTION ( 'NONE',  ( -0.000000000000000000, -0.000000000000000000, -1.000000000000000000 ) ) ;
#197 = FACE_OUTER_BOUND ( 'NONE', #212, .T. ) ;
#198 =( LENGTH_UNIT ( ) NAMED_UNIT ( * ) SI_UNIT ( .MILLI., .METRE. ) );
#199 = LINE ( 'NONE', #82, #108 ) ;
#200 = ORGANIZATION ( 'UNSPECIFIED', 'UNSPECIFIED', '' ) ;
#201 = CARTESIAN_POINT ( 'NONE',  ( 10.00000000000000000, 10.00000000000000000, -10.00000000000000000 ) ) ;
#202 = VECTOR ( 'NONE', #236, 1000.000000000000000 ) ;
#203 = EDGE_CURVE ( 'NONE', #214, #218, #125, .T. ) ;
#204 = CARTESIAN_POINT ( 'NONE',  ( 10.00000000000000178, -10.00000000000000000, 10.00000000000000000 ) ) ;
#205 = ADVANCED_FACE ( 'NONE', ( #155 ), #257, .F. ) ;
#206 = DATE_AND_TIME ( #139, #194 ) ;
#207 = ADVANCED_FACE ( 'NONE', ( #48 ), #250, .F. ) ;
#208 = VECTOR ( 'NONE', #154, 1000.000000000000000 ) ;
#209 = ORIENTED_EDGE ( 'NONE', *, *, #45, .T. ) ;
#210 = LOCAL_TIME ( 11, 12, 55.00000000000000000, #215 ) ;
#211 = PERSON_AND_ORGANIZATION ( #259, #200 ) ;
#212 = EDGE_LOOP ( 'NONE', ( #216, #241, #245, #46 ) ) ;
#213 = VERTEX_POINT ( 'NONE', #6 ) ;
#214 = VERTEX_POINT ( 'NONE', #27 ) ;
#215 = COORDINATED_UNIVERSAL_TIME_OFFSET ( 8, 0, .AHEAD. ) ;
#216 = ORIENTED_EDGE ( 'NONE', *, *, #265, .F. ) ;
#217 = CC_DESIGN_DATE_AND_TIME_ASSIGNMENT ( #163, #292, ( #14 ) ) ;
#218 = VERTEX_POINT ( 'NONE', #121 ) ;
#219 = DIRECTION ( 'NONE',  ( 2.220446049250313081E-16, 1.000000000000000000, 0.000000000000000000 ) ) ;
#220 = LINE ( 'NONE', #100, #56 ) ;
#221 = AXIS2_PLACEMENT_3D ( 'NONE', #81, #228, #54 ) ;
#222 = CC_DESIGN_PERSON_AND_ORGANIZATION_ASSIGNMENT ( #63, #290, ( #227 ) ) ;
#223 = ORIENTED_EDGE ( 'NONE', *, *, #62, .F. ) ;
#224 = DIRECTION ( 'NONE',  ( -0.7071067811865475727, -0.7071067811865474617, 0.000000000000000000 ) ) ;
#225 = CARTESIAN_POINT ( 'NONE',  ( 10.00000000000000000, 10.00000000000000000, -10.00000000000000000 ) ) ;
#226 = CARTESIAN_POINT ( 'NONE',  ( 0.000000000000000000, 0.000000000000000000, 10.00000000000000000 ) ) ;
#227 = PRODUCT ( 'BK7-LPBSC-20-405', 'BK7-LPBSC-20-405', '', ( #320 ) ) ;
#228 = DIRECTION ( 'NONE',  ( 0.000000000000000000, 1.000000000000000000, 0.000000000000000000 ) ) ;
#229 = CARTESIAN_POINT ( 'NONE',  ( -10.00000000000000178, -9.999999999999996447, 10.00000000000000000 ) ) ;
#230 = ADVANCED_FACE ( 'NONE', ( #170 ), #75, .F. ) ;
#231 = CC_DESIGN_SECURITY_CLASSIFICATION ( #142, ( #260 ) ) ;
#232 = LINE ( 'NONE', #281, #149 ) ;
#233 = APPLICATION_CONTEXT ( 'configuration controlled 3d designs of mechanical parts and assemblies' ) ;
#234 = EDGE_CURVE ( 'NONE', #248, #42, #99, .T. ) ;
#235 = FACE_OUTER_BOUND ( 'NONE', #277, .T. ) ;
#236 = DIRECTION ( 'NONE',  ( 2.220446049250313081E-16, 1.000000000000000000, 0.000000000000000000 ) ) ;
#237 = APPROVAL_PERSON_ORGANIZATION ( #185, #97, #160 ) ;
#238 = COORDINATED_UNIVERSAL_TIME_OFFSET ( 8, 0, .AHEAD. ) ;
#239 = ADVANCED_FACE ( 'NONE', ( #9 ), #102, .F. ) ;
#240 = VECTOR ( 'NONE', #103, 1000.000000000000000 ) ;
#241 = ORIENTED_EDGE ( 'NONE', *, *, #203, .F. ) ;
#242 = AXIS2_PLACEMENT_3D ( 'NONE', #29, #261, #287 ) ;
#243 = EDGE_CURVE ( 'NONE', #42, #213, #316, .T. ) ;
#244 = APPROVAL_DATE_TIME ( #294, #186 ) ;
#245 = ORIENTED_EDGE ( 'NONE', *, *, #13, .T. ) ;
#246 = EDGE_LOOP ( 'NONE', ( #38, #39, #23, #98 ) ) ;
#247 = SHAPE_DEFINITION_REPRESENTATION ( #285, #314 ) ;
#248 = VERTEX_POINT ( 'NONE', #107 ) ;
#249 = EDGE_LOOP ( 'NONE', ( #189, #274, #73, #25 ) ) ;
#250 = PLANE ( 'NONE',  #132 ) ;
#251 = CARTESIAN_POINT ( 'NONE',  ( -9.999999999999998224, -10.00000000000000000, -10.00000000000000000 ) ) ;
#252 = DIRECTION ( 'NONE',  ( -0.000000000000000000, 0.000000000000000000, 1.000000000000000000 ) ) ;
#253 = CC_DESIGN_APPROVAL ( #97, ( #142 ) ) ;
#254 = LINE ( 'NONE', #12, #166 ) ;
#255 = DIRECTION ( 'NONE',  ( -2.220446049250313081E-16, -1.000000000000000000, 0.000000000000000000 ) ) ;
#256 = PLANE ( 'NONE',  #270 ) ;
#257 = PLANE ( 'NONE',  #26 ) ;
#258 = AXIS2_PLACEMENT_3D ( 'NONE', #226, #252, #305 ) ;
#259 = PERSON ( 'UNSPECIFIED', 'UNSPECIFIED', 'UNSPECIFIED', ('UNSPECIFIED'), ('UNSPECIFIED'), ('UNSPECIFIED') ) ;
#260 = PRODUCT_DEFINITION_FORMATION_WITH_SPECIFIED_SOURCE ( 'ANY', '', #227, .NOT_KNOWN. ) ;
#261 = DIRECTION ( 'NONE',  ( 0.000000000000000000, -0.000000000000000000, 1.000000000000000000 ) ) ;
#262 =( NAMED_UNIT ( * ) PLANE_ANGLE_UNIT ( ) SI_UNIT ( $, .RADIAN. ) );
#263 = CALENDAR_DATE ( 2020, 22, 12 ) ;
#264 = PERSON_AND_ORGANIZATION ( #259, #200 ) ;
#265 = EDGE_CURVE ( 'NONE', #218, #302, #152, .T. ) ;
#266 = APPROVAL_STATUS ( 'not_yet_approved' ) ;
#267 = EDGE_CURVE ( 'NONE', #321, #302, #178, .T. ) ;
#268 = APPROVAL_STATUS ( 'not_yet_approved' ) ;
#269 = VERTEX_POINT ( 'NONE', #311 ) ;
#270 = AXIS2_PLACEMENT_3D ( 'NONE', #124, #288, #308 ) ;
#271 = PERSON_AND_ORGANIZATION ( #259, #200 ) ;
#272 = ORIENTED_EDGE ( 'NONE', *, *, #153, .F. ) ;
#273 = EDGE_CURVE ( 'NONE', #213, #248, #232, .T. ) ;
#274 = ORIENTED_EDGE ( 'NONE', *, *, #267, .F. ) ;
#275 = FACE_OUTER_BOUND ( 'NONE', #5, .T. ) ;
#276 = CC_DESIGN_PERSON_AND_ORGANIZATION_ASSIGNMENT ( #35, #36, ( #260 ) ) ;
#277 = EDGE_LOOP ( 'NONE', ( #223, #43, #141 ) ) ;
#278 = DIRECTION ( 'NONE',  ( -0.000000000000000000, 1.000000000000000000, -0.000000000000000000 ) ) ;
#279 = CARTESIAN_POINT ( 'NONE',  ( 10.00000000000000000, 10.00000000000000000, 10.00000000000000000 ) ) ;
#280 = ADVANCED_FACE ( 'NONE', ( #235 ), #182, .T. ) ;
#281 = CARTESIAN_POINT ( 'NONE',  ( 10.00000000000000178, 9.999999999999998224, -10.00000000000000000 ) ) ;
#282 = DIRECTION ( 'NONE',  ( -0.000000000000000000, 0.000000000000000000, -1.000000000000000000 ) ) ;
#283 = CARTESIAN_POINT ( 'NONE',  ( -9.999999999999998224, 10.00000000000000355, 10.00000000000000000 ) ) ;
#284 = DIRECTION ( 'NONE',  ( 0.000000000000000000, 0.000000000000000000, 1.000000000000000000 ) ) ;
#285 = PRODUCT_DEFINITION_SHAPE ( 'NONE', 'NONE',  #14 ) ;
#286 = CARTESIAN_POINT ( 'NONE',  ( -9.999999999999998224, 10.00000000000000355, 10.00000000000000000 ) ) ;
#287 = DIRECTION ( 'NONE',  ( 2.220446049250313081E-16, 1.000000000000000000, 0.000000000000000000 ) ) ;
#288 = DIRECTION ( 'NONE',  ( 0.7071067811865474617, -0.7071067811865475727, 0.000000000000000000 ) ) ;
#289 = ADVANCED_FACE ( 'NONE', ( #11 ), #256, .F. ) ;
#290 = PERSON_AND_ORGANIZATION_ROLE ( 'design_owner' ) ;
#291 = CC_DESIGN_APPROVAL ( #186, ( #14 ) ) ;
#292 = DATE_TIME_ROLE ( 'creation_date' ) ;
#293 = CC_DESIGN_PERSON_AND_ORGANIZATION_ASSIGNMENT ( #211, #167, ( #260 ) ) ;
#294 = DATE_AND_TIME ( #16, #150 ) ;
#295 = DATE_AND_TIME ( #37, #1 ) ;
#296 = ORIENTED_EDGE ( 'NONE', *, *, #22, .T. ) ;
#297 = VECTOR ( 'NONE', #224, 1000.000000000000000 ) ;
#298 = VECTOR ( 'NONE', #181, 1000.000000000000000 ) ;
#299 = ORIENTED_EDGE ( 'NONE', *, *, #120, .F. ) ;
#300 = CALENDAR_DATE ( 2020, 22, 12 ) ;
#301 = ORIENTED_EDGE ( 'NONE', *, *, #265, .T. ) ;
#302 = VERTEX_POINT ( 'NONE', #79 ) ;
#303 = LINE ( 'NONE', #179, #240 ) ;
#304 = ORIENTED_EDGE ( 'NONE', *, *, #273, .F. ) ;
#305 = DIRECTION ( 'NONE',  ( 1.000000000000000000, 0.000000000000000000, 0.000000000000000000 ) ) ;
#306 = ADVANCED_FACE ( 'NONE', ( #127 ), #84, .F. ) ;
#307 = CARTESIAN_POINT ( 'NONE',  ( 10.00000000000000000, 10.00000000000000000, 10.00000000000000000 ) ) ;
#308 = DIRECTION ( 'NONE',  ( 0.7071067811865475727, 0.7071067811865474617, 0.000000000000000000 ) ) ;
#309 = LINE ( 'NONE', #279, #208 ) ;
#310 = CC_DESIGN_DATE_AND_TIME_ASSIGNMENT ( #206, #86, ( #142 ) ) ;
#311 = CARTESIAN_POINT ( 'NONE',  ( -9.999999999999998224, -10.00000000000000000, 10.00000000000000000 ) ) ;
#312 = DIRECTION ( 'NONE',  ( 0.000000000000000000, 0.000000000000000000, 1.000000000000000000 ) ) ;
#313 = DIRECTION ( 'NONE',  ( 0.000000000000000000, 0.000000000000000000, 1.000000000000000000 ) ) ;
#314 = ADVANCED_BREP_SHAPE_REPRESENTATION ( 'BK7-LPBSC-20-405', ( #52, #158, #131 ), #128 ) ;
#315 = UNCERTAINTY_MEASURE_WITH_UNIT (LENGTH_MEASURE( 1.000000000000000082E-05 ), #198, 'distance_accuracy_value', 'NONE');
#316 = LINE ( 'NONE', #85, #161 ) ;
#317 = LINE ( 'NONE', #204, #298 ) ;
#318 = EDGE_CURVE ( 'NONE', #21, #213, #317, .T. ) ;
#319 = DIRECTION ( 'NONE',  ( 0.000000000000000000, 0.000000000000000000, 1.000000000000000000 ) ) ;
#320 = MECHANICAL_CONTEXT ( 'NONE', #69, 'mechanical' ) ;
#321 = VERTEX_POINT ( 'NONE', #286 ) ;
ENDSEC;
END-ISO-10303-21;
